El Violín de Becho

Canción: El Violín de Becho
Autor: Alfredo Zitarrosa
 
Introducción 1
 
1|-------5-------6--5----|-------5-------6-----5-
2|----6-----8------------|----6-----8-------6----
3|-----------------------|-----------------------
4|----7-----8-------7----|----7-----8-------7----
5|---------------------0-|-----------------------
6|-0-----------0---------|-0-----------0---------
 
1|-------3-------5--3----|-------3-------5-----3-
2|----5-----6----------5-|----5-----6-------5----
3|-----------------------|-----------------------
4|----5-----7-------5----|----5-----7-------5----
5|-0-----------0---------|-0-----------0---------
6|-----------------------|-----------------------
 
1|-------1-------3--1----|------1--------3-----1-
2|----3-----5------------|---3-----5--------3----
3|-----------------------|-----------------------
4|----3-----5-------3----|---3-----5--------3----
5|---------------------0-|-----------------------
6|-0-----------0---------|-0----------0----------
 
1|-------0--------1--0----|-------0--------1-----0-
2|----2-----3-----------2-|----2-----3--------2----
3|------------------------|------------------------
4|----2-----3--------2----|----2-----3--------2----
5|-0-----------0----------|-0-----------0----------
6|------------------------|------------------------
 
Introducción 2
 
1|----------10------10----|----------10------------
2|-------10----11------11-|-10----10----11---10----
3|----10------------------|----10---------------10-
4|----------------0-------|----------------0-------
5|------------------------|------------------------
6|-0----------------------|-0----------------------
 
1|---------9------9----|----------9-------------
2|-----------10-----10-|------------10-------10-
3|------12-------------|-12----12---------12----
4|---11----------------|----11---------11-------
5|-0------------0------|-0----------------------
6|---------------------|------------------------
 
1|--------10-----10---|----------10------------
2|-----10---11-----11-|--10---10---11----10----
3|---10---------------|----10---------------10-
4|--------------0-----|----------------0-------
5|--------------------|------------------------
6|-0------------------|-0----------------------
 
1|---------9------9----|-----------------------
2|-----------10-----10-|----10-11-------10---8-
3|------12-------------|-12-------12-10----9---
4|---11----------------|-----------------------
5|-0------------0------|-0---------------------
6|---------------------|-----------------------
 
Rem
A) Becho toca el violín en la orquesta
La7
Cara de chiquilín sin maestra
Rem
Y la orquesta no sirve, no tiene
La7.................................Rem La7
Más que un solo violín que le duele.
 
A) Porque a Becho le duelen violines
Que son como su amor chiquilines
Becho quiere un violín que sea hombre
Que al dolor y al amor no lo nombre.
 
Intermedio:

 
Rem II 10 - I 13
    II10<I13 12 13 12 10 10
    II 14 13 14
    I 10 12... 12 10
    II 14 10
    III 8<9<10<11<12 10 9 10 12
    II 10
    III 11~12
    II 10
    III 12 10 9 10 9 8 9 10 12... 11~12
    II 10 - 12 10 - IV 11 0
 
Rem
 
A) Becho tiene un violín que no ama
Pero siente que el violín lo llama
Por la noche como arrepentido
Vuelve a amar ese triste sonido
 
A) Mariposa marrón de madera
Niño violín que se desespera
Cuando Becho lo toca y se calma
Queda el violín sonando en su alma.
 
A) Porque a Becho le duelen violines
Que son como su amor chiquilines
Becho quiere un violín que sea hombre
Que al amor y al dolor no lo nombre.
   
A) Vida y muerte violín padre y madre
Canta el violín y Becho  es el aire
Ya no puede tocara en la orquesta
Porque amar y cantar eso cuesta.
About these ads

Deja un comentario

Introduce tus datos o haz clic en un icono para iniciar sesión:

Logo de WordPress.com

Estás comentando usando tu cuenta de WordPress.com. Cerrar sesión / Cambiar )

Imagen de Twitter

Estás comentando usando tu cuenta de Twitter. Cerrar sesión / Cambiar )

Foto de Facebook

Estás comentando usando tu cuenta de Facebook. Cerrar sesión / Cambiar )

Google+ photo

Estás comentando usando tu cuenta de Google+. Cerrar sesión / Cambiar )

Conectando a %s